Harry Potter Easy Guitar Tabs

SCLAE: Am

TEMPO/ SPEED: 120 BPM

e|------3-2-0--7-5--2-----3-2----------|
B|---5----------------5--------4-6-----|
G|-4-------------------------------4---|

e|-------3-2-0--7-10-9-8----8-7-6------| 
B|---5-------------------9---------8---|
G|-4---------------------------------9-|
D|-------------------------------8-----|

e|---7----7----8-7-6------7-6-----7----|
B|-8----8----8--------7-8--------------|
G|-------------------------------------|
D|----------------------------8-9------|

e|---7----7----10-9-8-----8-7-6--------|
B|-8----8----8----------9---------8----|
G|----------------------------------9--|
D|------------------------------8------|

Leave a Reply