Pirates of the Caribbean Guitar Tabs

FULL SONG  GUITAR TABS

INTRO:

D|-0-0--0-0---0-0--0-0-0-------|4-TIMES
PART 1

B|--------------5-6-6--6-8-5-5----------|
G|----5-7-7---7----------------7-5--5h7-|
D|-7------------------------------------|

B|--------------5-6-6--6-8-5-5----------|
G|----5-7-7---7----------------7-5----7-|
D|-7------------------------------------|

e|----------------------5--6-6--5---5---|
B|------------6--8-8--8-----------8-----|
G|---5-7-7--7------------------------7--|
D|-7------------------------------------|

e|-------------5------------------------|
B|---5--6-6--8--------6--5-5--5---5-----|
G|-7-------------7--7-----------7-------|

PART 2

B|--------------5-6-6--6-8-5-5----------|
G|----5-7-7---7----------------7-5--5h7-|
D|-7------------------------------------|

B|--------------5-6-6--6-8-5-5----------|
G|----5-7-7---7----------------7-5----7-|
D|-7------------------------------------|

e|----------------------5--6-6--5---5---|
B|------------6--8-8--8-----------8-----|
G|---5-7-7--7------------------------7--|
D|-7------------------------------------|

e|-------------5------------------------|
B|---5--6-6--8--------6---5-5-----------|
G|-7-------------7--7-------------------|

PART 3 
e|--------------------------------------|
B|-----6---5-5--------------------------|
G|--7----------7-5-7--------------------|

e|-----------5---6----------------------|
B|-3--5-6--8---6---8------------5-5--3-6|
G|---------------7---7---6-7-6----------|
D|-----------------7---8----------------|

PART 4 

B|-8/10-10-10-11-10---6/8-8-8--8h10-----|
G|--------------------------------------|

e|--------------------------------------|
B|-------8/10-10-10-11-10-8-------------|
G|-------------------------------10-9-7-|

B|---------8-10-8----------8-10-8-------|
G|-7-9--10--------10-9--10--------------|

B|----8--10-8---------------------------|
G|-10---------10--9-10-9--7--9-----7----|
D|-----------------------------10-------|

B|--------------8-----8--10-8-----------|
G|-7-9-10--9-10---10----------10--7-7---|

B|--------8-10--10/11---8----8----------|
G|-7-9-10-------------7---10---9---7----|

e|-5--6--5-5-5--5-----6--5-6-5----------|
B|----------------8-8-------------------|
G|------------------------------7-------|

e|-------5-----6--5-5--8-5--------------|
B|---5-6---5-6------------8-8-6-5-6-5---|
G|-7----------------------------------7-|

Leave a Reply